The Pogues – Sick Bed Of Cuchulain (Mandolin)

 
 
 
Laura Canberra Women Vita colombe 06  
 
 
i
 
4 Votes



The Pogues - Sick Bed Of Cuchulain
Rum sodomy and the lash
Tabbed by Ben Taylor

Intro:
E|----------0----|----------0----|----------0----|--------------|
A|---3--3--5--5--|-3-0-3-3-5--5--|---3--3--5--5--|-3-0-3-3-5-3--|
D|-5-------------|---------------|-5-------------|--------------|
G|---------------|---------------|---------------|--------------|

Verse:
|C-|Dm|C-|Dm|C-|Dm|F-|C-|
|C-|Dm|C-|Dm|C-|Dm|Am|Am|

|F-|Bb|C-|F-|F-|Bb|C-|F-|
|F-|C-|Bb|C-|Bb|Bb|C-|C-|
|F-|F-|Bb|F-|Bb|F-|C-|F-|

Instrumental:
E|-----------------|----010----------|-----------------|----010----------|
A|-0-------0-3-----|-535---53-0------|-0-------0-3-----|-535---53-0------|
D|---333-5-----3-3-|------------5-5--|---333-5-----3-3-|------------3-3--|
G|-----------------|-----------------|-----------------|-----------------|
Advertisements
Report this ad
Report this ad

About thewildirishrose

Banjo, Mandolin, Bass, Guitar, Tin Whistle Tabs and Other Irish Music Related Things.
This entry was posted in Skin Sale Leather Medium sale Full Bag Red 17Z6xZtw. Bookmark the permalink.

Leave a Reply